0
SECTION
2
HEADER
9
$INSUNITS
70
4
9
$ACADVER
1
AC1014
9
$HANDSEED
5
FFFF
0
ENDSEC
0
SECTION
2
TABLES
0
TABLE
2
VPORT
5
8
100
AcDbSymbolTable
0
ENDTAB
0
TABLE
2
LTYPE
5
5
100
AcDbSymbolTable
0
LTYPE
5
14
100
AcDbSymbolTableRecord
100
AcDbLinetypeTableRecord
2
BYBLOCK
70
0
0
LTYPE
5
15
100
AcDbSymbolTableRecord
100
AcDbLinetypeTableRecord
2
BYLAYER
70
0
0
ENDTAB
0
TABLE
2
LAYER
5
2
100
AcDbSymbolTable
70
2
0
LAYER
5
50
100
AcDbSymbolTableRecord
100
AcDbLayerTableRecord
2
0
70
0
6
CONTINUOUS
0
ENDTAB
0
TABLE
2
STYLE
5
3
100
AcDbSymbolTable
70
1
0
STYLE
5
11
100
AcDbSymbolTableRecord
100
AcDbTextStyleTableRecord
2
STANDARD
70
0
0
ENDTAB
0
TABLE
2
VIEW
5
6
100
AcDbSymbolTable
70
0
0
ENDTAB
0
TABLE
2
UCS
5
7
100
AcDbSymbolTable
70
0
0
ENDTAB
0
TABLE
2
APPID
5
9
100
AcDbSymbolTable
70
2
0
APPID
5
12
100
AcDbSymbolTableRecord
100
AcDbRegAppTableRecord
2
ACAD
70
0
0
ENDTAB
0
TABLE
2
DIMSTYLE
5
A
100
AcDbSymbolTable
70
1
0
ENDTAB
0
TABLE
2
BLOCK_RECORD
5
1
100
AcDbSymbolTable
70
1
0
BLOCK_RECORD
5
1F
100
AcDbSymbolTableRecord
100
AcDbBlockTableRecord
2
*MODEL_SPACE
0
BLOCK_RECORD
5
1B
100
AcDbSymbolTableRecord
100
AcDbBlockTableRecord
2
*PAPER_SPACE
0
ENDTAB
0
ENDSEC
0
SECTION
2
BLOCKS
0
BLOCK
5
20
100
AcDbEntity
100
AcDbBlockBegin
2
*MODEL_SPACE
0
ENDBLK
5
21
100
AcDbEntity
100
AcDbBlockEnd
0
BLOCK
5
1C
100
AcDbEntity
100
AcDbBlockBegin
2
*PAPER_SPACE
0
ENDBLK
5
1D
100
AcDbEntity
100
AcDbBlockEnd
0
ENDSEC
0
SECTION
2
ENTITIES
0
LWPOLYLINE
5
100
100
AcDbEntity
8
0
100
AcDbPolyline
90
4
70
1
43
0.0
10
909.24469897476115
20
1757.4440409423592
10
906.24589897476108
20
1757.4440409423592
10
906.24589897476108
20
1770.7720409423589
10
909.24469897476115
20
1770.7720409423589
0
LWPOLYLINE
5
101
100
AcDbEntity
8
0
100
AcDbPolyline
90
4
70
1
43
0.0
10
909.24469897476115
20
1715.6287737636835
10
906.24589897476108
20
1715.6287737636835
10
906.24589897476108
20
1728.9567737636839
10
909.24469897476115
20
1728.9567737636839
0
LWPOLYLINE
5
102
100
AcDbEntity
8
0
100
AcDbPolyline
90
36
70
1
43
0.0
10
1035.3660887364381
20
1786.3491409423591
10
1035.3660887364381
20
1783.350340942359
10
1022.0380887364379
20
1783.3503409423588
10
1022.0380887364381
20
1786.3491409423589
10
1002.046088736438
20
1786.3491409423591
10
1002.046088736438
20
1783.350340942359
10
988.71808873643795
20
1783.3503409423588
10
988.71808873643795
20
1786.3491409423589
10
968.72608873643799
20
1786.3491409423591
10
968.72608873643799
20
1783.350340942359
10
955.39808873643801
20
1783.3503409423588
10
955.39808873643801
20
1786.3491409423589
10
935.40608873643805
20
1786.3491409423591
10
935.40608873643805
20
1783.350340942359
10
922.07808873643796
20
1783.3503409423588
10
922.07808873643796
20
1786.3491409423589
10
899.64976111435237
20
1786.3491409423591
10
899.64976111435249
20
1783.350340942359
10
886.32176111435251
20
1783.3503409423588
10
886.3217611143524
20
1786.3491409423589
10
880.25629897476108
20
1786.3491409423591
10
880.25629897476108
20
1773.770840942359
10
878.25709897476122
20
1773.770840942359
10
878.25709897476122
20
1760.4428409423588
10
880.25629897476108
20
1760.4428409423588
10
880.25629897476108
20
1728.955440942359
10
878.25709897476122
20
1728.955440942359
10
878.25709897476122
20
1715.6274409423588
10
880.25629897476108
20
1715.6274409423588
10
880.25629897476108
20
1703.0491409423587
10
1046.8562989747611
20
1703.0491409423589
10
1046.8562989747611
20
1718.0431409423591
10
963.55629897476115
20
1718.0431409423591
42
-0.99999999999999989
10
963.55629897476115
20
1771.3551409423587
10
1046.8562989747611
20
1771.355140942359
10
1046.8562989747611
20
1786.3491409423591
0
LWPOLYLINE
5
103
100
AcDbEntity
8
0
100
AcDbPolyline
90
20
70
1
43
0.0
10
951.20810580773252
20
1745.1690456786873
10
951.20810580773252
20
1731.8410456786874
10
948.20930580773233
20
1731.8410456786869
10
948.20930580773233
20
1726.010045678687
10
1024.1789058077325
20
1726.010045678687
10
1024.1789058077322
20
1731.8410456786869
10
1021.1801058077323
20
1731.8410456786869
10
1021.1801058077323
20
1745.1690456786869
10
1024.1789058077325
20
1745.1690456786873
10
1024.1789058077327
20
1751.0000456786872
10
1012.1004058077325
20
1751.0000456786872
10
1012.1004058077325
20
1748.0012456786872
10
998.77240580773264
20
1748.0012456786869
10
998.77240580773264
20
1751.000045678687
10
973.6158058077325
20
1751.0000456786872
10
973.6158058077325
20
1748.0012456786872
10
960.28780580773264
20
1748.0012456786869
10
960.28780580773264
20
1751.000045678687
10
948.20930580773256
20
1751.0000456786872
10
948.20930580773256
20
1745.1690456786873
0
LWPOLYLINE
5
104
100
AcDbEntity
8
0
100
AcDbPolyline
90
4
70
1
43
0.0
10
1092.6330859132377
20
1713.2651507629157
10
1095.6318859132377
20
1713.2651507629157
10
1095.6318859132377
20
1699.9371507629157
10
1092.6330859132377
20
1699.9371507629155
0
LWPOLYLINE
5
105
100
AcDbEntity
8
0
100
AcDbPolyline
90
4
70
1
43
0.0
10
1092.6330859132379
20
1755.0804179415909
10
1095.6318859132377
20
1755.0804179415909
10
1095.6318859132377
20
1741.7524179415909
10
1092.6330859132377
20
1741.7524179415909
0
LWPOLYLINE
5
106
100
AcDbEntity
8
0
100
AcDbPolyline
90
36
70
1
43
0.0
10
966.51169615156095
20
1687.3588507629156
10
979.83969615156093
20
1687.3588507629156
10
979.83969615156093
20
1684.3600507629158
10
999.831696151561
20
1684.3600507629158
10
999.831696151561
20
1687.3588507629156
10
1013.1596961515609
20
1687.3588507629156
10
1013.1596961515609
20
1684.3600507629158
10
1033.1516961515608
20
1684.3600507629158
10
1033.1516961515608
20
1687.3588507629156
10
1046.4796961515608
20
1687.3588507629156
10
1046.4796961515608
20
1684.3600507629158
10
1066.471696151561
20
1684.3600507629158
10
1066.471696151561
20
1687.3588507629156
10
1079.7996961515607
20
1687.3588507629156
10
1079.799696151561
20
1684.3600507629158
10
1102.2280237736463
20
1684.3600507629158
10
1102.2280237736463
20
1687.3588507629156
10
1115.5560237736465
20
1687.3588507629156
10
1115.5560237736468
20
1684.3600507629158
10
1121.6214859132378
20
1684.3600507629158
10
1121.6214859132378
20
1696.9383507629159
10
1123.6206859132378
20
1696.9383507629159
10
1123.6206859132378
20
1710.2663507629156
10
1121.6214859132376
20
1710.2663507629156
10
1121.6214859132378
20
1741.7537507629158
10
1123.6206859132378
20
1741.7537507629158
10
1123.6206859132378
20
1755.0817507629156
10
1121.6214859132378
20
1755.0817507629156
10
1121.6214859132378
20
1767.6600507629157
10
955.02148591323794
20
1767.6600507629157
10
955.02148591323794
20
1752.666050762916
10
1038.3214859132377
20
1752.6660507629153
42
-0.99999999999999989
10
1038.3214859132377
20
1699.3540507629157
10
955.02148591323771
20
1699.3540507629157
10
955.02148591323794
20
1684.3600507629158
10
966.51169615156107
20
1684.3600507629158
0
LINE
5
107
100
AcDbEntity
8
0
100
AcDbLine
10
1014.0072672862104
20
1671.0691311435803
30
0
11
1012.801441305316
21
1669.0220665770687
31
0
0
SPLINE
5
108
100
AcDbEntity
8
0
100
AcDbSpline
70
0
71
3
72
8
73
4
74
0
42
0.000000001
43
0.0000000001
44
0.0000000001
40
0.625
40
0.625
40
0.625
40
0.625
40
0.6875
40
0.6875
40
0.6875
40
0.6875
10
1012.801441305316
20
1669.0220665770687
30
0
10
1011.2481306885657
20
1666.5808784212322
30
0
10
1009.1456857582142
20
1661.8480290919256
30
0
10
1007.866399353521
20
1659.1120219403551
30
0
0
SPLINE
5
109
100
AcDbEntity
8
0
100
AcDbSpline
70
0
71
3
72
8
73
4
74
0
42
0.000000001
43
0.0000000001
44
0.0000000001
40
0.6875
40
0.6875
40
0.6875
40
0.6875
40
0.75
40
0.75
40
0.75
40
0.75
10
1007.866399353521
20
1659.1120219403551
30
0
10
1006.1031862989239
20
1655.3410535186777
30
0
10
1004.0166496495578
20
1650.7369363880612
30
0
10
1001.6534283588917
20
1647.3381565880698
30
0
0
SPLINE
5
110
100
AcDbEntity
8
0
100
AcDbSpline
70
0
71
3
72
8
73
4
74
0
42
0.000000001
43
0.0000000001
44
0.0000000001
40
0.75
40
0.75
40
0.75
40
0.75
40
0.8125
40
0.8125
40
0.8125
40
0.8125
10
1001.6534283588917
20
1647.3381565880698
30
0
10
999.92756990264911
20
1644.8559761040972
30
0
10
998.8848445227095
20
1643.5247841819228
30
0
10
996.59421494425249
20
1641.5291364826228
30
0
0
SPLINE
5
111
100
AcDbEntity
8
0
100
AcDbSpline
70
0
71
3
72
8
73
4
74
0
42
0.000000001
43
0.0000000001
44
0.0000000001
40
0.8125
40
0.8125
40
0.8125
40
0.8125
40
0.875
40
0.875
40
0.875
40
0.875
10
996.59421494425249
20
1641.5291364826228
30
0
10
995.05284911185981
20
1640.1863255429373
30
0
10
992.75179499432693
20
1638.7293333236883
30
0
10
990.82450403823691
20
1638.0300204940281
30
0
0
SPLINE
5
112
100
AcDbEntity
8
0
100
AcDbSpline
70
0
71
3
72
8
73
4
74
0
42
0.000000001
43
0.0000000001
44
0.0000000001
40
0.875
40
0.875
40
0.875
40
0.875
40
0.9375
40
0.9375
40
0.9375
40
0.9375
10
990.82450403823691
20
1638.0300204940281
30
0
10
988.18991896475666
20
1637.0740576841038
30
0
10
986.58986080558884
20
1636.781247583921
30
0
10
983.78267359814231
20
1636.621078884581
30
0
0
ARC
5
113
100
AcDbEntity
8
0
100
AcDbCircle
10
982.50587140430798
20
1658.9799259090225
30
0
40
22.395273253625454
210
0
220
0
230
1
100
AcDbArc
50
270.11977142174192
51
273.26832652256314
0
LINE
5
114
100
AcDbEntity
8
0
100
AcDbLine
10
982.55268657616102
20
1636.5847015867648
30
0
11
979.7622763612892
21
1636.5787834890605
31
0
0
SPLINE
5
115
100
AcDbEntity
8
0
100
AcDbSpline
70
0
71
3
72
8
73
4
74
0
42
0.000000001
43
0.0000000001
44
0.0000000001
40
0.0625
40
0.0625
40
0.0625
40
0.0625
40
0.125
40
0.125
40
0.125
40
0.125
10
979.7622763612892
20
1636.5787834890605
30
0
10
979.5081239268452
20
1638.2459496185279
30
0
10
979.40567025374219
20
1638.5075403959581
30
0
10
979.44894294980122
20
1640.1811675678737
30
0
0
SPLINE
5
116
100
AcDbEntity
8
0
100
AcDbSpline
70
0
71
3
72
8
73
4
74
0
42
0.000000001
43
0.0000000001
44
0.0000000001
40
0.125
40
0.125
40
0.125
40
0.125
40
0.1875
40
0.1875
40
0.1875
40
0.1875
10
979.44894294980122
20
1640.1811675678737
30
0
10
979.51317331296013
20
1642.6650311805515
30
0
10
980.06697695135563
20
1646.2501496165203
30
0
10
981.07077319318421
20
1648.5204187670952
30
0
0
SPLINE
5
117
100
AcDbEntity
8
0
100
AcDbSpline
70
0
71
3
72
11
73
7
74
0
42
0.000000001
43
0.0000000001
44
0.0000000001
40
0.1875
40
0.1875
40
0.1875
40
0.1875
40
0.25
40
0.25
40
0.25
40
0.3125
40
0.3125
40
0.3125
40
0.3125
10
981.07077319318421
20
1648.5204187670952
30
0
10
982.28441757838539
20
1651.2651673290363
30
0
10
983.24309511202728
20
1652.5319660046287
30
0
10
985.31611243727957
20
1654.7285575535075
30
0
10
987.41823160078479
20
1656.9559883638181
30
0
10
990.32238873942504
20
1659.2123038344844
30
0
10
993.04981736404784
20
1660.61549022965
30
0
0
SPLINE
5
118
100
AcDbEntity
8
0
100
AcDbSpline
70
0
71
3
72
8
73
4
74
0
42
0.000000001
43
0.0000000001
44
0.0000000001
40
0.3125
40
0.3125
40
0.3125
40
0.3125
40
0.375
40
0.375
40
0.375
40
0.375
10
993.04981736404784
20
1660.61549022965
30
0
10
996.0116352344503
20
1662.1392103578783
30
0
10
999.02324113783402
20
1663.5983743561014
30
0
10
1002.0483120708573
20
1664.9927107519475
30
0
0
SPLINE
5
119
100
AcDbEntity
8
0
100
AcDbSpline
70
0
71
3
72
8
73
4
74
0
42
0.000000001
43
0.0000000001
44
0.0000000001
40
0.375
40
0.375
40
0.375
40
0.375
40
0.4375
40
0.4375
40
0.4375
40
0.4375
10
1002.0483120708573
20
1664.9927107519475
30
0
10
1004.0769165160891
20
1665.9277158947716
30
0
10
1010.1916688066149
20
1668.8086349983892
30
0
10
1011.8868508848483
20
1669.9267754032041
30
0
0
LINE
5
120
100
AcDbEntity
8
0
100
AcDbLine
10
1011.8868508848482
20
1669.9267754032044
30
0
11
1013.9115461279268
21
1671.1642007681717
31
0
0
SPLINE
5
121
100
AcDbEntity
8
0
100
AcDbSpline
70
0
71
3
72
8
73
4
74
0
42
0.000000001
43
0.0000000001
44
0.0000000001
40
0.5
40
0.5
40
0.5
40
0.5
40
0.5625
40
0.5625
40
0.5625
40
0.5625
10
1013.9115461279268
20
1671.1642007681717
30
0
10
1013.9726817060478
20
1671.1987320538597
30
0
10
1014.0408212713601
20
1671.1307553719707
30
0
10
1014.0072672862104
20
1671.0691311435803
30
0
0
SPLINE
5
122
100
AcDbEntity
8
0
100
AcDbSpline
70
0
71
3
72
8
73
4
74
0
42
0.000000001
43
0.0000000001
44
0.0000000001
40
0.2142857142857143
40
0.2142857142857143
40
0.2142857142857143
40
0.2142857142857143
40
0.2857142857142857
40
0.2857142857142857
40
0.2857142857142857
40
0.2857142857142857
10
1036.680476892386
20
1676.6803564789611
30
0
10
1035.7487294180228
20
1676.9757184194386
30
0
10
1033.2698066025114
20
1677.7578846169606
30
0
10
1032.368083972465
20
1677.9018735629436
30
0
0
LINE
5
123
100
AcDbEntity
8
0
100
AcDbLine
10
1032.368083972465
20
1677.9018735629436
30
0
11
1079.8115729622066
21
1678.4658302680427
31
0
0
SPLINE
5
124
100
AcDbEntity
8
0
100
AcDbSpline
70
0
71
3
72
8
73
4
74
0
42
0.000000001
43
0.0000000001
44
0.0000000001
40
0.7857142857142857
40
0.7857142857142857
40
0.7857142857142857
40
0.7857142857142857
40
0.8571428571428571
40
0.8571428571428571
40
0.8571428571428571
40
0.8571428571428571
10
1079.8115729622066
20
1678.4658302680427
30
0
10
1079.9333554681791
20
1678.3226014447009
30
0
10
1079.9349300079352
20
1678.113296246072
30
0
10
1079.8171109985906
20
1677.9672441100638
30
0
0
SPLINE
5
125
100
AcDbEntity
8
0
100
AcDbSpline
70
0
71
3
72
8
73
4
74
0
42
0.000000001
43
0.0000000001
44
0.0000000001
40
0.8571428571428571
40
0.8571428571428571
40
0.8571428571428571
40
0.8571428571428571
40
0.92857142857142838
40
0.92857142857142838
40
0.92857142857142838
40
0.92857142857142838
10
1079.8171109985906
20
1677.9672441100638
30
0
10
1078.2200390355119
20
1675.987178924903
30
0
10
1075.0819813013616
20
1673.1736392639573
30
0
10
1072.8930452733666
20
1671.9810611348048
30
0
0
SPLINE
5
126
100
AcDbEntity
8
0
100
AcDbSpline
70
0
71
3
72
8
73
4
74
0
42
0.000000001
43
0.0000000001
44
0.0000000001
40
0.92857142857142838
40
0.92857142857142838
40
0.92857142857142838
40
0.92857142857142838
40
1
40
1
40
1
40
1
10
1072.8930452733666
20
1671.9810611348048
30
0
10
1069.1588885053
20
1669.9467014752915
30
0
10
1067.3047322061625
20
1669.7445631472772
30
0
10
1063.036589282839
20
1669.6505251176986
30
0
0
SPLINE
5
127
100
AcDbEntity
8
0
100
AcDbSpline
70
0
71
3
72
8
73
4
74
0
42
0.000000001
43
0.0000000001
44
0.0000000001
40
0
40
0
40
0
40
0
40
0.071428571428571397
40
0.071428571428571397
40
0.071428571428571397
40
0.071428571428571397
10
1063.036589282839
20
1669.6505251176986
30
0
10
1059.3202953968344
20
1669.5686490503751
30
0
10
1058.3812181684339
20
1669.6118674519596
30
0
10
1054.7930592419011
20
1670.5494244350784
30
0
0
SPLINE
5
128
100
AcDbEntity
8
0
100
AcDbSpline
70
0
71
3
72
8
73
4
74
0
42
0.000000001
43
0.0000000001
44
0.0000000001
40
0.071428571428571397
40
0.071428571428571397
40
0.071428571428571397
40
0.071428571428571397
40
0.14285714285714279
40
0.14285714285714279
40
0.14285714285714279
40
0.14285714285714279
10
1054.7930592419011
20
1670.5494244350784
30
0
10
1052.5919612516511
20
1671.12451150742
30
0
10
1049.4192636428636
20
1672.1459534534133
30
0
10
1047.2963496956813
20
1672.9626509366233
30
0
0
SPLINE
5
129
100
AcDbEntity
8
0
100
AcDbSpline
70
0
71
3
72
8
73
4
74
0
42
0.000000001
43
0.0000000001
44
0.0000000001
40
0.14285714285714279
40
0.14285714285714279
40
0.14285714285714279
40
0.14285714285714279
40
0.2142857142857143
40
0.2142857142857143
40
0.2142857142857143
40
0.2142857142857143
10
1047.2963496956813
20
1672.9626509366233
30
0
10
1044.0641453430035
20
1674.2060486937698
30
0
10
1039.9855444296447
20
1675.6327988908042
30
0
10
1036.680476892386
20
1676.6803564789611
30
0
0
SPLINE
5
130
100
AcDbEntity
8
0
100
AcDbSpline
70
0
71
3
72
8
73
4
74
0
42
0.000000001
43
0.0000000001
44
0.0000000001
40
0.5
40
0.5
40
0.5
40
0.5
40
0.5714285714285714
40
0.5714285714285714
40
0.5714285714285714
40
0.5714285714285714
10
1052.3367229277201
20
1666.1649284532177
30
0
10
1054.4715273647855
20
1665.6676996570977
30
0
10
1058.1393905796679
20
1665.0977162653453
30
0
10
1060.3279465463422
20
1664.9574193436183
30
0
0
SPLINE
5
131
100
AcDbEntity
8
0
100
AcDbSpline
70
0
71
3
72
8
73
4
74
0
42
0.000000001
43
0.0000000001
44
0.0000000001
40
0.5714285714285714
40
0.5714285714285714
40
0.5714285714285714
40
0.5714285714285714
40
0.64285714285714279
40
0.64285714285714279
40
0.64285714285714279
40
0.64285714285714279
10
1060.3279465463422
20
1664.9574193436183
30
0
10
1063.7100579427074
20
1664.7407300964776
30
0
10
1065.5279998274518
20
1664.8679420498854
30
0
10
1068.8302440520445
20
1665.3542576566608
30
0
0
SPLINE
5
132
100
AcDbEntity
8
0
100
AcDbSpline
70
0
71
3
72
8
73
4
74
0
42
0.000000001
43
0.0000000001
44
0.0000000001
40
0.64285714285714279
40
0.64285714285714279
40
0.64285714285714279
40
0.64285714285714279
40
0.71428571428571419
40
0.71428571428571419
40
0.71428571428571419
40
0.71428571428571419
10
1068.8302440520445
20
1665.3542576566608
30
0
10
1069.5320001330504
20
1665.4575800413534
30
0
10
1070.9878521683379
20
1665.8099511799012
30
0
10
1071.5856343309588
20
1665.7240573214756
30
0
0
SPLINE
5
133
100
AcDbEntity
8
0
100
AcDbSpline
70
0
71
3
72
8
73
4
74
0
42
0.000000001
43
0.0000000001
44
0.0000000001
40
0.71428571428571419
40
0.71428571428571419
40
0.71428571428571419
40
0.71428571428571419
40
0.7857142857142857
40
0.7857142857142857
40
0.7857142857142857
40
0.7857142857142857
10
1071.5856343309588
20
1665.7240573214756
30
0
10
1072.476172299288
20
1665.5961395399008
30
0
10
1073.6995896898727
20
1663.8061050149738
30
0
10
1074.1914433330319
20
1663.110972859839
30
0
0
SPLINE
5
134
100
AcDbEntity
8
0
100
AcDbSpline
70
0
71
3
72
8
73
4
74
0
42
0.000000001
43
0.0000000001
44
0.0000000001
40
0.7857142857142857
40
0.7857142857142857
40
0.7857142857142857
40
0.7857142857142857
40
0.8571428571428571
40
0.8571428571428571
40
0.8571428571428571
40
0.8571428571428571
10
1074.1914433330319
20
1663.110972859839
30
0
10
1075.4354926238705
20
1661.3527548968823
30
0
10
1077.1342038429366
20
1658.3324075831279
30
0
10
1077.3764657874974
20
1656.1565565234519
30
0
0
SPLINE
5
135
100
AcDbEntity
8
0
100
AcDbSpline
70
0
71
3
72
8
73
4
74
0
42
0.000000001
43
0.0000000001
44
0.0000000001
40
0.8571428571428571
40
0.8571428571428571
40
0.8571428571428571
40
0.8571428571428571
40
0.92857142857142838
40
0.92857142857142838
40
0.92857142857142838
40
0.92857142857142838
10
1077.3764657874974
20
1656.1565565234519
30
0
10
1077.4031786688788
20
1655.9167921247115
30
0
10
1076.9591584576242
20
1655.695379258302
30
0
10
1076.7273210521394
20
1655.5500872449347
30
0
0
SPLINE
5
136
100
AcDbEntity
8
0
100
AcDbSpline
70
0
71
3
72
8
73
4
74
0
42
0.000000001
43
0.0000000001
44
0.0000000001
40
0.92857142857142838
40
0.92857142857142838
40
0.92857142857142838
40
0.92857142857142838
40
1
40
1
40
1
40
1
10
1076.7273210521394
20
1655.5500872449347
30
0
10
1074.1497451767293
20
1653.9345008661021
30
0
10
1070.4825334955394
20
1652.9190313122876
30
0
10
1067.4456806615817
20
1652.6629785712412
30
0
0
LINE
5
137
100
AcDbEntity
8
0
100
AcDbLine
10
1067.4456806615817
20
1652.6629785712412
30
0
11
1065.0067185791936
21
1652.4574196913429
31
0
0
SPLINE
5
138
100
AcDbEntity
8
0
100
AcDbSpline
70
0
71
3
72
8
73
4
74
0
42
0.000000001
43
0.0000000001
44
0.0000000001
40
0.071428571428571397
40
0.071428571428571397
40
0.071428571428571397
40
0.071428571428571397
40
0.14285714285714279
40
0.14285714285714279
40
0.14285714285714279
40
0.14285714285714279
10
1065.0067185791934
20
1652.4574196913429
30
0
10
1063.8525266434085
20
1654.1369649609626
30
0
10
1063.6596183760339
20
1654.5027468346755
30
0
10
1062.3202279882323
20
1656.0198973315069
30
0
0
SPLINE
5
139
100
AcDbEntity
8
0
100
AcDbSpline
70
0
71
3
72
8
73
4
74
0
42
0.000000001
43
0.0000000001
44
0.0000000001
40
0.14285714285714279
40
0.14285714285714279
40
0.14285714285714279
40
0.14285714285714279
40
0.2142857142857143
40
0.2142857142857143
40
0.2142857142857143
40
0.2142857142857143
10
1062.3202279882323
20
1656.0198973315069
30
0
10
1059.9459849192726
20
1658.7093198240827
30
0
10
1057.1120305359702
20
1661.2457404879337
30
0
10
1054.1815405772691
20
1663.3178891015964
30
0
0
SPLINE
5
140
100
AcDbEntity
8
0
100
AcDbSpline
70
0
71
3
72
8
73
4
74
0
42
0.000000001
43
0.0000000001
44
0.0000000001
40
0.2142857142857143
40
0.2142857142857143
40
0.2142857142857143
40
0.2142857142857143
40
0.2857142857142857
40
0.2857142857142857
40
0.2857142857142857
40
0.2857142857142857
10
1054.1815405772691
20
1663.3178891015964
30
0
10
1053.2049458670908
20
1664.0084062264111
30
0
10
1052.0211634427835
20
1664.8297730344157
30
0
10
1051.0051509442255
20
1665.4531278944567
30
0
0
SPLINE
5
141
100
AcDbEntity
8
0
100
AcDbSpline
70
0
71
3
72
8
73
4
74
0
42
0.000000001
43
0.0000000001
44
0.0000000001
40
0.2857142857142857
40
0.2857142857142857
40
0.2857142857142857
40
0.2857142857142857
40
0.3571428571428571
40
0.3571428571428571
40
0.3571428571428571
40
0.3571428571428571
10
1051.0051509442255
20
1665.4531278944567
30
0
10
1050.8284767246826
20
1665.5615539597386
30
0
10
1049.3271259198875
20
1666.5235434563158
30
0
10
1049.3202305216448
20
1666.649235164442
30
0
0
SPLINE
5
142
100
AcDbEntity
8
0
100
AcDbSpline
70
0
71
3
72
8
73
4
74
0
42
0.000000001
43
0.0000000001
44
0.0000000001
40
0.3571428571428571
40
0.3571428571428571
40
0.3571428571428571
40
0.3571428571428571
40
0.42857142857142849
40
0.42857142857142849
40
0.42857142857142849
40
0.42857142857142849
10
1049.3202305216448
20
1666.649235164442
30
0
10
1049.3170271476581
20
1666.7075474298963
30
0
10
1049.399120392879
20
1666.7449020282511
30
0
10
1049.4601473820512
20
1666.7348575504957
30
0
0
LINE
5
143
100
AcDbEntity
8
0
100
AcDbLine
10
1049.4601473820512
20
1666.7348575504957
30
0
11
1052.3367229277201
21
1666.1649284532177
31
0
0
SPLINE
5
144
100
AcDbEntity
8
0
100
AcDbSpline
70
0
71
3
72
8
73
4
74
0
42
0.000000001
43
0.0000000001
44
0.0000000001
40
0.46153846153846162
40
0.46153846153846162
40
0.46153846153846162
40
0.46153846153846162
40
0.53846153846153855
40
0.53846153846153855
40
0.53846153846153855
40
0.53846153846153855
10
1009.1632771679044
20
1649.7237472021695
30
0
10
1009.9040709759697
20
1650.8470998765222
30
0
10
1009.4905642593014
20
1649.2047463218339
30
0
10
1009.4191670255279
20
1648.8119257998937
30
0
0
SPLINE
5
145
100
AcDbEntity
8
0
100
AcDbSpline
70
0
71
3
72
11
73
7
74
0
42
0.000000001
43
0.0000000001
44
0.0000000001
40
0.53846153846153855
40
0.53846153846153855
40
0.53846153846153855
40
0.53846153846153855
40
0.61538461538461542
40
0.61538461538461542
40
0.61538461538461542
40
0.69230769230769229
40
0.69230769230769229
40
0.69230769230769229
40
0.69230769230769229
10
1009.4191670255279
20
1648.8119257998937
30
0
10
1008.6272821170968
20
1644.4543055828376
30
0
10
1008.0037100791584
20
1641.4708785116427
30
0
10
1008.0037100791584
20
1636.9074279423162
30
0
10
1008.0037100791584
20
1635.1090320683386
30
0
10
1008.1762579186505
20
1632.0013792398254
30
0
10
1008.5117434756746
20
1630.2530428712009
30
0
0
LINE
5
146
100
AcDbEntity
8
0
100
AcDbLine
10
1008.5117434756746
20
1630.2530428712009
30
0
11
1009.0198311666652
21
1627.6051556515044
31
0
0
SPLINE
5
147
100
AcDbEntity
8
0
100
AcDbSpline
70
0
71
3
72
8
73
4
74
0
42
0.000000001
43
0.0000000001
44
0.0000000001
40
0.76923076923076927
40
0.76923076923076927
40
0.76923076923076927
40
0.76923076923076927
40
0.84615384615384626
40
0.84615384615384626
40
0.84615384615384626
40
0.84615384615384626
10
1009.0198311666652
20
1627.6051556515044
30
0
10
1007.9777030259436
20
1626.5205149373651
30
0
10
1008.0330833897831
20
1626.5034664724183
30
0
10
1006.7908258165983
20
1625.6376867843935
30
0
0
SPLINE
5
148
100
AcDbEntity
8
0
100
AcDbSpline
70
0
71
3
72
8
73
4
74
0
42
0.000000001
43
0.0000000001
44
0.0000000001
40
0.84615384615384626
40
0.84615384615384626
40
0.84615384615384626
40
0.84615384615384626
40
0.92307692307692324
40
0.92307692307692324
40
0.92307692307692324
40
0.92307692307692324
10
1006.7908258165983
20
1625.6376867843935
30
0
10
1005.2042869815442
20
1624.5320341086795
30
0
10
1003.3164138138339
20
1623.4663421660889
30
0
10
1001.5743213097599
20
1622.6191311882926
30
0
0
SPLINE
5
149
100
AcDbEntity
8
0
100
AcDbSpline
70
0
71
3
72
8
73
4
74
0
42
0.000000001
43
0.0000000001
44
0.0000000001
40
0.92307692307692324
40
0.92307692307692324
40
0.92307692307692324
40
0.92307692307692324
40
1
40
1
40
1
40
1
10
1001.5743213097599
20
1622.6191311882926
30
0
10
1001.1150986456867
20
1622.3958180152808
30
0
10
1000.0381677469051
20
1622.0543600660781
30
0
10
999.44445766986064
20
1621.8135097778504
30
0
0
SPLINE
5
150
100
AcDbEntity
8
0
100
AcDbSpline
70
0
71
3
72
8
73
4
74
0
42
0.000000001
43
0.0000000001
44
0.0000000001
40
0
40
0
40
0
40
0
40
0.0769230769230769
40
0.0769230769230769
40
0.0769230769230769
40
0.0769230769230769
10
999.44445766986064
20
1621.8135097778504
30
0
10
998.55435405732601
20
1621.4523972289319
30
0
10
997.59198449942812
20
1623.9561326192224
30
0
10
997.36845414851905
20
1624.4862095723261
30
0
0
SPLINE
5
151
100
AcDbEntity
8
0
100
AcDbSpline
70
0
71
3
72
8
73
4
74
0
42
0.000000001
43
0.0000000001
44
0.0000000001
40
0.0769230769230769
40
0.0769230769230769
40
0.0769230769230769
40
0.0769230769230769
40
0.15384615384615391
40
0.15384615384615391
40
0.15384615384615391
40
0.15384615384615391
10
997.36845414851905
20
1624.4862095723261
30
0
10
996.44474225636009
20
1626.6765572566537
30
0
10
995.98535670886372
20
1628.2967586658065
30
0
10
995.64612483310941
20
1630.6686127778949
30
0
0
SPLINE
5
152
100
AcDbEntity
8
0
100
AcDbSpline
70
0
71
3
72
8
73
4
74
0
42
0.000000001
43
0.0000000001
44
0.0000000001
40
0.15384615384615391
40
0.15384615384615391
40
0.15384615384615391
40
0.15384615384615391
40
0.23076923076923081
40
0.23076923076923081
40
0.23076923076923081
40
0.23076923076923081
10
995.64612483310941
20
1630.6686127778949
30
0
10
995.48090674765479
20
1631.8236734252696
30
0
10
995.40728344043282
20
1633.5179867919135
30
0
10
995.32747056313474
20
1634.709967681848
30
0
0
SPLINE
5
153
100
AcDbEntity
8
0
100
AcDbSpline
70
0
71
3
72
8
73
4
74
0
42
0.000000001
43
0.0000000001
44
0.0000000001
40
0.23076923076923081
40
0.23076923076923081
40
0.23076923076923081
40
0.23076923076923081
40
0.30769230769230771
40
0.30769230769230771
40
0.30769230769230771
40
0.30769230769230771
10
995.32747056313474
20
1634.709967681848
30
0
10
997.09432134751319
20
1635.8022639168712
30
0
10
997.13705109882869
20
1635.7581225092226
30
0
10
998.71050496556359
20
1637.1210766988931
30
0
0
SPLINE
5
154
100
AcDbEntity
8
0
100
AcDbSpline
70
0
71
3
72
8
73
4
74
0
42
0.000000001
43
0.0000000001
44
0.0000000001
40
0.30769230769230771
40
0.30769230769230771
40
0.30769230769230771
40
0.30769230769230771
40
0.38461538461538458
40
0.38461538461538458
40
0.38461538461538458
40
0.38461538461538458
10
998.71050496556359
20
1637.1210766988931
30
0
10
1000.8588830212173
20
1638.9819655128504
30
0
10
1002.8721221302076
20
1641.0645386655888
30
0
10
1004.7102072649366
20
1643.2298023027658
30
0
0
SPLINE
5
155
100
AcDbEntity
8
0
100
AcDbSpline
70
0
71
3
72
8
73
4
74
0
42
0.000000001
43
0.0000000001
44
0.0000000001
40
0.38461538461538458
40
0.38461538461538458
40
0.38461538461538458
40
0.38461538461538458
40
0.46153846153846162
40
0.46153846153846162
40
0.46153846153846162
40
0.46153846153846162
10
1004.7102072649366
20
1643.2298023027658
30
0
10
1005.899256253256
20
1644.6304911521113
30
0
10
1008.073261300804
20
1648.0706433415592
30
0
10
1009.1632771679044
20
1649.7237472021695
30
0
0
SPLINE
5
156
100
AcDbEntity
8
0
100
AcDbSpline
70
0
71
3
72
8
73
4
74
0
42
0.000000001
43
0.0000000001
44
0.0000000001
40
0.53846153846153855
40
0.53846153846153855
40
0.53846153846153855
40
0.53846153846153855
40
0.61538461538461542
40
0.61538461538461542
40
0.61538461538461542
40
0.61538461538461542
10
992.15944227914133
20
1666.5589434535937
30
0
10
992.32688643804431
20
1666.5957551072047
30
0
10
993.31618605522112
20
1666.9078397457827
30
0
10
993.25233575338257
20
1666.7028238106277
30
0
0
SPLINE
5
157
100
AcDbEntity
8
0
100
AcDbSpline
70
0
71
3
72
8
73
4
74
0
42
0.000000001
43
0.0000000001
44
0.0000000001
40
0.61538461538461542
40
0.61538461538461542
40
0.61538461538461542
40
0.61538461538461542
40
0.69230769230769229
40
0.69230769230769229
40
0.69230769230769229
40
0.69230769230769229
10
993.25233575338257
20
1666.7028238106277
30
0
10
993.18539066650601
20
1666.4878719866665
30
0
10
992.15124381351416
20
1665.846708539038
30
0
10
991.92440149966956
20
1665.6920235816076
30
0
0
SPLINE
5
158
100
AcDbEntity
8
0
100
AcDbSpline
70
0
71
3
72
8
73
4
74
0
42
0.000000001
43
0.0000000001
44
0.0000000001
40
0.69230769230769229
40
0.69230769230769229
40
0.69230769230769229
40
0.69230769230769229
40
0.76923076923076927
40
0.76923076923076927
40
0.76923076923076927
40
0.76923076923076927
10
991.92440149966956
20
1665.6920235816076
30
0
10
990.61090957613396
20
1664.7965448161119
30
0
10
989.06471153552388
20
1663.8335237245219
30
0
10
987.83298709036342
20
1662.9123093781834
30
0
0
SPLINE
5
159
100
AcDbEntity
8
0
100
AcDbSpline
70
0
71
3
72
8
73
4
74
0
42
0.000000001
43
0.0000000001
44
0.0000000001
40
0.76923076923076927
40
0.76923076923076927
40
0.76923076923076927
40
0.76923076923076927
40
0.84615384615384626
40
0.84615384615384626
40
0.84615384615384626
40
0.84615384615384626
10
987.83298709036342
20
1662.9123093781834
30
0
10
984.24423092461268
20
1660.2284249219911
30
0
10
981.8342620915289
20
1657.9562011703397
30
0
10
979.03874819606813
20
1654.4674554263463
30
0
0
SPLINE
5
160
100
AcDbEntity
8
0
100
AcDbSpline
70
0
71
3
72
8
73
4
74
0
42
0.000000001
43
0.0000000001
44
0.0000000001
40
0.84615384615384626
40
0.84615384615384626
40
0.84615384615384626
40
0.84615384615384626
40
0.92307692307692324
40
0.92307692307692324
40
0.92307692307692324
40
0.92307692307692324
10
979.03874819606813
20
1654.4674554263463
30
0
10
978.37478106921139
20
1653.6388131587785
30
0
10
977.74653970647887
20
1652.6463101676152
30
0
10
977.11395478579811
20
1651.7602786406567
30
0
0
SPLINE
5
161
100
AcDbEntity
8
0
100
AcDbSpline
70
0
71
3
72
8
73
4
74
0
42
0.000000001
43
0.0000000001
44
0.0000000001
40
0.92307692307692324
40
0.92307692307692324
40
0.92307692307692324
40
0.92307692307692324
40
1
40
1
40
1
40
1
10
977.11395478579811
20
1651.7602786406567
30
0
10
976.5547759944418
20
1650.9771351425966
30
0
10
976.08078523334461
20
1650.8588274829824
30
0
10
975.14529144025119
20
1650.8765274816212
30
0
0
SPLINE
5
162
100
AcDbEntity
8
0
100
AcDbSpline
70
0
71
3
72
8
73
4
74
0
42
0.000000001
43
0.0000000001
44
0.0000000001
40
0
40
0
40
0
40
0
40
0.0769230769230769
40
0.0769230769230769
40
0.0769230769230769
40
0.0769230769230769
10
975.14529144025119
20
1650.8765274816212
30
0
10
973.82332957871677
20
1650.9018830011439
30
0
10
970.97156660782684
20
1651.6174298786354
30
0
10
969.65606578874053
20
1652.0139967193061
30
0
0
SPLINE
5
163
100
AcDbEntity
8
0
100
AcDbSpline
70
0
71
3
72
8
73
4
74
0
42
0.000000001
43
0.0000000001
44
0.0000000001
40
0.0769230769230769
40
0.0769230769230769
40
0.0769230769230769
40
0.0769230769230769
40
0.15384615384615391
40
0.15384615384615391
40
0.15384615384615391
40
0.15384615384615391
10
969.65606578874053
20
1652.0139967193061
30
0
10
968.86950173879598
20
1652.2511006888033
30
0
10
966.05688508391404
20
1653.0901132009722
30
0
10
965.59559922981532
20
1653.7830192826586
30
0
0
SPLINE
5
164
100
AcDbEntity
8
0
100
AcDbSpline
70
0
71
3
72
8
73
4
74
0
42
0.000000001
43
0.0000000001
44
0.0000000001
40
0.15384615384615391
40
0.15384615384615391
40
0.15384615384615391
40
0.15384615384615391
40
0.23076923076923081
40
0.23076923076923081
40
0.23076923076923081
40
0.23076923076923081
10
965.59559922981532
20
1653.7830192826586
30
0
10
965.21874128333479
20
1654.3490391777834
30
0
10
965.91175595396987
20
1655.8493040930912
30
0
10
966.13072556903353
20
1656.3733000650673
30
0
0
SPLINE
5
165
100
AcDbEntity
8
0
100
AcDbSpline
70
0
71
3
72
8
73
4
74
0
42
0.000000001
43
0.0000000001
44
0.0000000001
40
0.23076923076923081
40
0.23076923076923081
40
0.23076923076923081
40
0.23076923076923081
40
0.30769230769230771
40
0.30769230769230771
40
0.30769230769230771
40
0.30769230769230771
10
966.13072556903353
20
1656.3733000650673
30
0
10
967.13235003188811
20
1658.7705096966781
30
0
10
968.15368338893279
20
1660.6876475860645
30
0
10
969.67952100166076
20
1662.8073581592598
30
0
0
SPLINE
5
166
100
AcDbEntity
8
0
100
AcDbSpline
70
0
71
3
72
8
73
4
74
0
42
0.000000001
43
0.0000000001
44
0.0000000001
40
0.30769230769230771
40
0.30769230769230771
40
0.30769230769230771
40
0.30769230769230771
40
0.38461538461538458
40
0.38461538461538458
40
0.38461538461538458
40
0.38461538461538458
10
969.67952100166076
20
1662.8073581592598
30
0
10
970.25259917845119
20
1663.6035323311648
30
0
10
971.38816810953358
20
1664.7996938956244
30
0
10
972.07005241292654
20
1665.5562873957263
30
0
0
SPLINE
5
167
100
AcDbEntity
8
0
100
AcDbSpline
70
0
71
3
72
8
73
4
74
0
42
0.000000001
43
0.0000000001
44
0.0000000001
40
0.38461538461538458
40
0.38461538461538458
40
0.38461538461538458
40
0.38461538461538458
40
0.46153846153846162
40
0.46153846153846162
40
0.46153846153846162
40
0.46153846153846162
10
972.07005241292654
20
1665.5562873957263
30
0
10
977.67340504952608
20
1664.8717969575646
30
0
10
979.77422114564683
20
1664.5176341013632
30
0
10
985.3763250093366
20
1665.2910588885143
30
0
0
SPLINE
5
168
100
AcDbEntity
8
0
100
AcDbSpline
70
0
71
3
72
8
73
4
74
0
42
0.000000001
43
0.0000000001
44
0.0000000001
40
0.46153846153846162
40
0.46153846153846162
40
0.46153846153846162
40
0.46153846153846162
40
0.53846153846153855
40
0.53846153846153855
40
0.53846153846153855
40
0.53846153846153855
10
985.3763250093366
20
1665.2910588885143
30
0
10
987.76490181952545
20
1665.6208435257315
30
0
10
989.82016485166446
20
1666.0446118980526
30
0
10
992.15944227914133
20
1666.5589434535937
30
0
0
SPLINE
5
169
100
AcDbEntity
8
0
100
AcDbSpline
70
0
71
3
72
8
73
4
74
0
42
0.000000001
43
0.0000000001
44
0.0000000001
40
0.46153846153846162
40
0.46153846153846162
40
0.46153846153846162
40
0.46153846153846162
40
0.53846153846153855
40
0.53846153846153855
40
0.53846153846153855
40
0.53846153846153855
10
1033.1838584496113
20
1648.3895147894314
30
0
10
1033.1289667360409
20
1648.5585877825652
30
0
10
1032.7601986662389
20
1649.8651843078576
30
0
10
1033.0064241074274
20
1649.9341382902853
30
0
0
SPLINE
5
170
100
AcDbEntity
8
0
100
AcDbSpline
70
0
71
3
72
11
73
7
74
0
42
0.000000001
43
0.0000000001
44
0.0000000001
40
0.53846153846153855
40
0.53846153846153855
40
0.53846153846153855
40
0.53846153846153855
40
0.61538461538461542
40
0.61538461538461542
40
0.61538461538461542
40
0.69230769230769229
40
0.69230769230769229
40
0.69230769230769229
40
0.69230769230769229
10
1033.0064241074274
20
1649.9341382902853
30
0
10
1033.2827829818816
20
1650.0115079162376
30
0
10
1034.6916702968542
20
1647.7414559435601
30
0
10
1034.84168592949
20
1647.5219433837528
30
0
10
1036.9427192035084
20
1644.4475730680176
30
0
10
1039.850785544302
20
1640.3305859612917
30
0
10
1042.7136788824341
20
1637.9843045466234
30
0
0
SPLINE
5
171
100
AcDbEntity
8
0
100
AcDbSpline
70
0
71
3
72
8
73
4
74
0
42
0.000000001
43
0.0000000001
44
0.0000000001
40
0.69230769230769229
40
0.69230769230769229
40
0.69230769230769229
40
0.69230769230769229
40
0.76923076923076927
40
0.76923076923076927
40
0.76923076923076927
40
0.76923076923076927
10
1042.7136788824341
20
1637.9843045466234
30
0
10
1044.7869133855838
20
1636.285267560711
30
0
10
1046.0160316959755
20
1635.5161863315082
30
0
10
1048.258339192259
20
1634.030363746378
30
0
0
SPLINE
5
172
100
AcDbEntity
8
0
100
AcDbSpline
70
0
71
3
72
8
73
4
74
0
42
0.000000001
43
0.0000000001
44
0.0000000001
40
0.76923076923076927
40
0.76923076923076927
40
0.76923076923076927
40
0.76923076923076927
40
0.84615384615384626
40
0.84615384615384626
40
0.84615384615384626
40
0.84615384615384626
10
1048.258339192259
20
1634.030363746378
30
0
10
1047.9973456540463
20
1630.4629453090477
30
0
10
1047.9275772545034
20
1628.4887982215912
30
0
10
1046.6368347157218
20
1625.1305220994668
30
0
0
SPLINE
5
173
100
AcDbEntity
8
0
100
AcDbSpline
70
0
71
3
72
8
73
4
74
0
42
0.000000001
43
0.0000000001
44
0.0000000001
40
0.84615384615384626
40
0.84615384615384626
40
0.84615384615384626
40
0.84615384615384626
40
0.92307692307692324
40
0.92307692307692324
40
0.92307692307692324
40
0.92307692307692324
10
1046.6368347157218
20
1625.1305220994668
30
0
10
1046.3271933284896
20
1624.3248463945501
30
0
10
1045.9452317014197
20
1623.2802750024828
30
0
10
1045.2510225523488
20
1622.7294575601768
30
0
0
ELLIPSE
5
174
100
AcDbEntity
8
0
100
AcDbEllipse
10
1045.0672972423536
20
1622.9598087140996
30
0
11
0.2669414837361816
21
0.12967519231240188
31
0.0
40
0.99248202339284286
41
4.2138114715152319
42
4.9318404353620657
0
SPLINE
5
175
100
AcDbEntity
8
0
100
AcDbSpline
70
0
71
3
72
8
73
4
74
0
42
0.000000001
43
0.0000000001
44
0.0000000001
40
0
40
0
40
0
40
0
40
0.0769230769230769
40
0.0769230769230769
40
0.0769230769230769
40
0.0769230769230769
10
1045.0526848375393
20
1622.6651186080694
30
0
10
1044.5600710717392
20
1622.6859133917465
30
0
10
1042.1866967143687
20
1623.5872016659973
30
0
10
1041.6722565698792
20
1623.8101890721632
30
0
0
SPLINE
5
176
100
AcDbEntity
8
0
100
AcDbSpline
70
0
71
3
72
8
73
4
74
0
42
0.000000001
43
0.0000000001
44
0.0000000001
40
0.0769230769230769
40
0.0769230769230769
40
0.0769230769230769
40
0.0769230769230769
40
0.15384615384615391
40
0.15384615384615391
40
0.15384615384615391
40
0.15384615384615391
10
1041.6722565698792
20
1623.8101890721632
30
0
10
1039.4110545965211
20
1624.790421512123
30
0
10
1037.9894080800755
20
1625.5941426159629
30
0
10
1036.032472340989
20
1627.0907698014892
30
0
0
SPLINE
5
177
100
AcDbEntity
8
0
100
AcDbSpline
70
0
71
3
72
8
73
4
74
0
42
0.000000001
43
0.0000000001
44
0.0000000001
40
0.15384615384615391
40
0.15384615384615391
40
0.15384615384615391
40
0.15384615384615391
40
0.23076923076923081
40
0.23076923076923081
40
0.23076923076923081
40
0.23076923076923081
10
1036.032472340989
20
1627.0907698014892
30
0
10
1035.3662248462094
20
1627.6003234432872
30
0
10
1034.5237917821564
20
1628.3710335067208
30
0
10
1033.8805108500283
20
1628.9335242610125
30
0
0
SPLINE
5
178
100
AcDbEntity
8
0
100
AcDbSpline
70
0
71
3
72
8
73
4
74
0
42
0.000000001
43
0.0000000001
44
0.0000000001
40
0.23076923076923081
40
0.23076923076923081
40
0.23076923076923081
40
0.23076923076923081
40
0.30769230769230771
40
0.30769230769230771
40
0.30769230769230771
40
0.30769230769230771
10
1033.8805108500283
20
1628.9335242610125
30
0
10
1034.2793580586215
20
1631.0120253281743
30
0
10
1034.3551531448175
20
1631.1533538449139
30
0
10
1034.4794331966104
20
1633.2655174861745
30
0
0
SPLINE
5
179
100
AcDbEntity
8
0
100
AcDbSpline
70
0
71
3
72
8
73
4
74
0
42
0.000000001
43
0.0000000001
44
0.0000000001
40
0.30769230769230771
40
0.30769230769230771
40
0.30769230769230771
40
0.30769230769230771
40
0.38461538461538458
40
0.38461538461538458
40
0.38461538461538458
40
0.38461538461538458
10
1034.4794331966104
20
1633.2655174861745
30
0
10
1034.7151255097745
20
1637.2717981596957
30
0
10
1034.5520249088195
20
1641.4192444665334
30
0
10
1033.8369666815972
20
1645.3712849601766
30
0
0
SPLINE
5
180
100
AcDbEntity
8
0
100
AcDbSpline
70
0
71
3
72
8
73
4
74
0
42
0.000000001
43
0.0000000001
44
0.0000000001
40
0.38461538461538458
40
0.38461538461538458
40
0.38461538461538458
40
0.38461538461538458
40
0.46153846153846162
40
0.46153846153846162
40
0.46153846153846162
40
0.46153846153846162
10
1033.8369666815972
20
1645.3712849601766
30
0
10
1033.7042166918056
20
1646.1048576031531
30
0
10
1033.405488493918
20
1647.7068703633975
30
0
10
1033.1838584496113
20
1648.3895147894314
30
0
0
SPLINE
5
181
100
AcDbEntity
8
0
100
AcDbSpline
70
0
71
3
72
8
73
4
74
0
42
0.000000001
43
0.0000000001
44
0.0000000001
40
0.5
40
0.5
40
0.5
40
0.5
40
0.5625
40
0.5625
40
0.5625
40
0.5625
10
1028.595323833134
20
1670.8167704267903
30
0
10
1028.7691747400106
20
1670.9899697999745
30
0
10
1030.0340188145262
20
1670.0719588276227
30
0
10
1030.2465816816161
20
1669.9455069968556
30
0
0
SPLINE
5
182
100
AcDbEntity
8
0
100
AcDbSpline
70
0
71
3
72
8
73
4
74
0
42
0.000000001
43
0.0000000001
44
0.0000000001
40
0.5625
40
0.5625
40
0.5625
40
0.5625
40
0.625
40
0.625
40
0.625
40
0.625
10
1030.2465816816161
20
1669.9455069968556
30
0
10
1035.0849794690637
20
1667.0680084451226
30
0
10
1040.3066962454398
20
1664.9819604460256
30
0
10
1045.4122228467013
20
1662.6035367025406
30
0
0
SPLINE
5
183
100
AcDbEntity
8
0
100
AcDbSpline
70
0
71
3
72
8
73
4
74
0
42
0.000000001
43
0.0000000001
44
0.0000000001
40
0.625
40
0.625
40
0.625
40
0.625
40
0.6875
40
0.6875
40
0.6875
40
0.6875
10
1045.4122228467013
20
1662.6035367025406
30
0
10
1047.2228892718827
20
1661.7600720434748
30
0
10
1050.739976731488
20
1659.7832102323009
30
0
10
1052.2964907222249
20
1658.6739198268051
30
0
0
SPLINE
5
184
100
AcDbEntity
8
0
100
AcDbSpline
70
0
71
3
72
8
73
4
74
0
42
0.000000001
43
0.0000000001
44
0.0000000001
40
0.6875
40
0.6875
40
0.6875
40
0.6875
40
0.75
40
0.75
40
0.75
40
0.75
10
1052.2964907222249
20
1658.6739198268051
30
0
10
1055.2552681020638
20
1656.5651767374288
30
0
10
1057.6279366312676
20
1654.2814968516886
30
0
10
1059.8097057886478
20
1651.3832578107531
30
0
0
SPLINE
5
185
100
AcDbEntity
8
0
100
AcDbSpline
70
0
71
3
72
8
73
4
74
0
42
0.000000001
43
0.0000000001
44
0.0000000001
40
0.75
40
0.75
40
0.75
40
0.75
40
0.8125
40
0.8125
40
0.8125
40
0.8125
10
1059.8097057886478
20
1651.3832578107531
30
0
10
1061.0555467971401
20
1649.728307938015
30
0
10
1062.1202071447178
20
1646.6235870111168
30
0
10
1062.4917985271863
20
1644.5942224432438
30
0
0
SPLINE
5
186
100
AcDbEntity
8
0
100
AcDbSpline
70
0
71
3
72
8
73
4
74
0
42
0.000000001
43
0.0000000001
44
0.0000000001
40
0.8125
40
0.8125
40
0.8125
40
0.8125
40
0.875
40
0.875
40
0.875
40
0.875
10
1062.4917985271863
20
1644.5942224432438
30
0
10
1062.9462432775167
20
1642.1124220205916
30
0
10
1063.0584699560031
20
1639.7577249623987
30
0
10
1062.8221804036211
20
1637.2508404925957
30
0
0
SPLINE
5
187
100
AcDbEntity
8
0
100
AcDbSpline
70
0
71
3
72
8
73
4
74
0
42
0.000000001
43
0.0000000001
44
0.0000000001
40
0.875
40
0.875
40
0.875
40
0.875
40
0.9375
40
0.9375
40
0.9375
40
0.9375
10
1062.8221804036211
20
1637.2508404925957
30
0
10
1062.8031230431234
20
1637.0484849866839
30
0
10
1062.6931767325598
20
1636.8396684383242
30
0
10
1062.4775733749059
20
1636.7976988096498
30
0
0
SPLINE
5
188
100
AcDbEntity
8
0
100
AcDbSpline
70
0
71
3
72
8
73
4
74
0
42
0.000000001
43
0.0000000001
44
0.0000000001
40
0.9375
40
0.9375
40
0.9375
40
0.9375
40
1
40
1
40
1
40
1
10
1062.4775733749059
20
1636.7976988096498
30
0
10
1061.4666102624628
20
1636.6010442235449
30
0
10
1060.381480898054
20
1636.5914341015846
30
0
10
1059.3533064372409
20
1636.5975150827121
30
0
0
SPLINE
5
189
100
AcDbEntity
8
0
100
AcDbSpline
70
0
71
3
72
8
73
4
74
0
42
0.000000001
43
0.0000000001
44
0.0000000001
40
0
40
0
40
0
40
0
40
0.0625
40
0.0625
40
0.0625
40
0.0625
10
1059.3533064372409
20
1636.5975150827121
30
0
10
1057.1702342124761
20
1636.6105457565568
30
0
10
1054.6620466752886
20
1636.899392360112
30
0
10
1052.5902238284721
20
1637.609455495694
30
0
0
SPLINE
5
190
100
AcDbEntity
8
0
100
AcDbSpline
70
0
71
3
72
8
73
4
74
0
42
0.000000001
43
0.0000000001
44
0.0000000001
40
0.0625
40
0.0625
40
0.0625
40
0.0625
40
0.125
40
0.125
40
0.125
40
0.125
10
1052.5902238284721
20
1637.609455495694
30
0
10
1049.9927218809748
20
1638.4996134027028
30
0
10
1048.4615634097602
20
1639.335585424308
30
0
10
1046.2670893453812
20
1640.9540494102814
30
0
0
SPLINE
5
191
100
AcDbEntity
8
0
100
AcDbSpline
70
0
71
3
72
8
73
4
74
0
42
0.000000001
43
0.0000000001
44
0.0000000001
40
0.125
40
0.125
40
0.125
40
0.125
40
0.1875
40
0.1875
40
0.1875
40
0.1875
10
1046.2670893453812
20
1640.9540494102814
30
0
10
1044.7756744293929
20
1642.0540011661885
30
0
10
1043.1061193430539
20
1644.0683261646657
30
0
10
1041.9845040918801
20
1645.5368288124773
30
0
0
SPLINE
5
192
100
AcDbEntity
8
0
100
AcDbSpline
70
0
71
3
72
8
73
4
74
0
42
0.000000001
43
0.0000000001
44
0.0000000001
40
0.1875
40
0.1875
40
0.1875
40
0.1875
40
0.25
40
0.25
40
0.25
40
0.25
10
1041.9845040918801
20
1645.5368288124773
30
0
10
1040.5742051205743
20
1647.3833838852054
30
0
10
1038.529040860665
20
1650.9616612174063
30
0
10
1037.4695927826249
20
1653.0586767003224
30
0
0
LINE
5
193
100
AcDbEntity
8
0
100
AcDbLine
10
1037.4695927826249
20
1653.0586767003224
30
0
11
1034.7258215212221
21
1658.6669158396137
31
0
0
LINE
5
194
100
AcDbEntity
8
0
100
AcDbLine
10
1034.7258215212221
20
1658.6669158396137
30
0
11
1033.8419617732377
21
1660.6456236629156
31
0
0
SPLINE
5
195
100
AcDbEntity
8
0
100
AcDbSpline
70
0
71
3
72
8
73
4
74
0
42
0.000000001
43
0.0000000001
44
0.0000000001
40
0.375
40
0.375
40
0.375
40
0.375
40
0.4375
40
0.4375
40
0.4375
40
0.4375
10
1033.8419617732379
20
1660.6456236629156
30
0
10
1033.0290649032324
20
1662.4111170854353
30
0
10
1030.1788221776242
20
1668.4569153935336
30
0
10
1029.1544483300158
20
1669.7557478089936
30
0
0
SPLINE
5
196
100
AcDbEntity
8
0
100
AcDbSpline
70
0
71
3
72
8
73
4
74
0
42
0.000000001
43
0.0000000001
44
0.0000000001
40
0.4375
40
0.4375
40
0.4375
40
0.4375
40
0.5
40
0.5
40
0.5
40
0.5
10
1029.1544483300158
20
1669.7557478089936
30
0
10
1029.0574783988222
20
1669.8787247934022
30
0
10
1028.4514434760999
20
1670.6734330144996
30
0
10
1028.595323833134
20
1670.8167704267903
30
0
0
SPLINE
5
197
100
AcDbEntity
8
0
100
AcDbSpline
70
0
71
3
72
8
73
4
74
0
42
0.000000001
43
0.0000000001
44
0.0000000001
40
0.5
40
0.5
40
0.5
40
0.5
40
0.5714285714285714
40
0.5714285714285714
40
0.5714285714285714
40
0.5714285714285714
10
1020.432855442404
20
1665.1212800672142
30
0
10
1020.4333983871476
20
1665.1232346682909
30
0
10
1021.2221342160661
20
1667.9638129774642
30
0
10
1021.3733443271378
20
1667.4998123996479
30
0
0
SPLINE
5
198
100
AcDbEntity
8
0
100
AcDbSpline
70
0
71
3
72
8
73
4
74
0
42
0.000000001
43
0.0000000001
44
0.0000000001
40
0.5714285714285714
40
0.5714285714285714
40
0.5714285714285714
40
0.5714285714285714
40
0.64285714285714279
40
0.64285714285714279
40
0.64285714285714279
40
0.64285714285714279
10
1021.3733443271378
20
1667.4998123996479
30
0
10
1021.7410808019272
20
1666.3709759833853
30
0
10
1022.0682593043753
20
1664.7010951302002
30
0
10
1022.4481577414199
20
1663.4516163919263
30
0
0
SPLINE
5
199
100
AcDbEntity
8
0
100
AcDbSpline
70
0
71
3
72
8
73
4
74
0
42
0.000000001
43
0.0000000001
44
0.0000000001
40
0.64285714285714279
40
0.64285714285714279
40
0.64285714285714279
40
0.64285714285714279
40
0.71428571428571419
40
0.71428571428571419
40
0.71428571428571419
40
0.71428571428571419
10
1022.4481577414199
20
1663.4516163919263
30
0
10
1024.2739723249451
20
1657.4465932340672
30
0
10
1028.8416578632712
20
1647.026126243966
30
0
10
1029.5505808148916
20
1641.5629619401445
30
0
0
SPLINE
5
200
100
AcDbEntity
8
0
100
AcDbSpline
70
0
71
3
72
8
73
4
74
0
42
0.000000001
43
0.0000000001
44
0.0000000001
40
0.71428571428571419
40
0.71428571428571419
40
0.71428571428571419
40
0.71428571428571419
40
0.7857142857142857
40
0.7857142857142857
40
0.7857142857142857
40
0.7857142857142857
10
1029.5505808148916
20
1641.5629619401445
30
0
10
1029.944215753947
20
1638.5295839525454
30
0
10
1029.9802129904426
20
1635.1991066012895
30
0
10
1029.5013357266539
20
1632.1724611285099
30
0
0
SPLINE
5
201
100
AcDbEntity
8
0
100
AcDbSpline
70
0
71
3
72
8
73
4
74
0
42
0.000000001
43
0.0000000001
44
0.0000000001
40
0.7857142857142857
40
0.7857142857142857
40
0.7857142857142857
40
0.7857142857142857
40
0.8571428571428571
40
0.8571428571428571
40
0.8571428571428571
40
0.8571428571428571
10
1029.5013357266539
20
1632.1724611285099
30
0
10
1029.2806829828853
20
1630.7779618492407
30
0
10
1028.1604250935707
20
1627.9025807820074
30
0
10
1027.4183282181207
20
1626.6964290342671
30
0
0
SPLINE
5
202
100
AcDbEntity
8
0
100
AcDbSpline
70
0
71
3
72
8
73
4
74
0
42
0.000000001
43
0.0000000001
44
0.0000000001
40
0.8571428571428571
40
0.8571428571428571
40
0.8571428571428571
40
0.8571428571428571
40
0.92857142857142838
40
0.92857142857142838
40
0.92857142857142838
40
0.92857142857142838
10
1027.4183282181207
20
1626.6964290342671
30
0
10
1026.0548853781811
20
1624.4804000635702
30
0
10
1024.516071386083
20
1622.6494275049813
30
0
10
1022.6489387075752
20
1620.8440276438125
30
0
0
ARC
5
203
100
AcDbEntity
8
0
100
AcDbCircle
10
1018.5742148991712
20
1625.0590889614089
30
0
40
5.8626031782710228
210
0
220
0
230
1
100
AcDbArc
50
307.22481895231823
51
314.03013421198676
0
LINE
5
204
100
AcDbEntity
8
0
100
AcDbLine
10
1022.1207620610743
20
1620.3908859608666
30
0
11
1021.0739645955582
21
1619.5954719116025
31
0
0
SPLINE
5
205
100
AcDbEntity
8
0
100
AcDbSpline
70
0
71
3
72
8
73
4
74
0
42
0.000000001
43
0.0000000001
44
0.0000000001
40
0.071428571428571397
40
0.071428571428571397
40
0.071428571428571397
40
0.071428571428571397
40
0.14285714285714279
40
0.14285714285714279
40
0.14285714285714279
40
0.14285714285714279
10
1021.0739645955582
20
1619.5954719116025
30
0
10
1019.151777320057
20
1621.5281923151281
30
0
10
1017.0234882199139
20
1623.5867673102027
30
0
10
1015.4886377244435
20
1625.8753879931087
30
0
0
SPLINE
5
206
100
AcDbEntity
8
0
100
AcDbSpline
70
0
71
3
72
8
73
4
74
0
42
0.000000001
43
0.0000000001
44
0.0000000001
40
0.14285714285714279
40
0.14285714285714279
40
0.14285714285714279
40
0.14285714285714279
40
0.2142857142857143
40
0.2142857142857143
40
0.2142857142857143
40
0.2142857142857143
10
1015.4886377244435
20
1625.8753879931087
30
0
10
1014.7183077223305
20
1627.0240418925098
30
0
10
1013.7828139292372
20
1628.9755481841612
30
0
10
1013.3626832866976
20
1630.2926778374783
30
0
0
SPLINE
5
207
100
AcDbEntity
8
0
100
AcDbSpline
70
0
71
3
72
8
73
4
74
0
42
0.000000001
43
0.0000000001
44
0.0000000001
40
0.2142857142857143
40
0.2142857142857143
40
0.2142857142857143
40
0.2142857142857143
40
0.2857142857142857
40
0.2857142857142857
40
0.2857142857142857
40
0.2857142857142857
10
1013.3626832866976
20
1630.2926778374783
30
0
10
1012.5822002178807
20
1632.7395669131217
30
0
10
1012.6128765958899
20
1634.5340535849459
30
0
10
1012.6252557360422
20
1637.0885000142816
30
0
0
SPLINE
5
208
100
AcDbEntity
8
0
100
AcDbSpline
70
0
71
3
72
8
73
4
74
0
42
0.000000001
43
0.0000000001
44
0.0000000001
40
0.2857142857142857
40
0.2857142857142857
40
0.2857142857142857
40
0.2857142857142857
40
0.3571428571428571
40
0.3571428571428571
40
0.3571428571428571
40
0.3571428571428571
10
1012.6252557360422
20
1637.0885000142816
30
0
10
1012.6471907036805
20
1641.6287668430596
30
0
10
1012.9607955875406
20
1643.2397381915723
30
0
10
1014.2942135831631
20
1647.5154280468309
30
0
0
SPLINE
5
209
100
AcDbEntity
8
0
100
AcDbSpline
70
0
71
3
72
8
73
4
74
0
42
0.000000001
43
0.0000000001
44
0.0000000001
40
0.3571428571428571
40
0.3571428571428571
40
0.3571428571428571
40
0.3571428571428571
40
0.42857142857142849
40
0.42857142857142849
40
0.42857142857142849
40
0.42857142857142849
10
1014.2942135831631
20
1647.5154280468309
30
0
10
1015.620247530274
20
1651.7674998057455
30
0
10
1017.2912685674205
20
1655.692121589841
30
0
10
1018.7984288809713
20
1659.8545531715999
30
0
0
SPLINE
5
210
100
AcDbEntity
8
0
100
AcDbSpline
70
0
71
3
72
8
73
4
74
0
42
0.000000001
43
0.0000000001
44
0.0000000001
40
0.42857142857142849
40
0.42857142857142849
40
0.42857142857142849
40
0.42857142857142849
40
0.5
40
0.5
40
0.5
40
0.5
10
1018.7984288809713
20
1659.8545531715999
30
0
10
1019.3572276110069
20
1661.3978736050694
30
0
10
1020.007403941378
20
1663.5321350973913
30
0
10
1020.432855442404
20
1665.1212800672142
30
0
0
SPLINE
5
211
100
AcDbEntity
8
0
100
AcDbSpline
70
0
71
3
72
8
73
4
74
0
42
0.000000001
43
0.0000000001
44
0.0000000001
40
0.1764705882352941
40
0.1764705882352941
40
0.1764705882352941
40
0.1764705882352941
40
0.23529411764705879
40
0.23529411764705879
40
0.23529411764705879
40
0.23529411764705879
10
964.71201095420292
20
1675.907094575233
30
0
10
964.03463309218137
20
1676.5302322573766
30
0
10
963.27608499100279
20
1677.4636085659702
30
0
10
962.73221724141399
20
1678.2213965445078
30
0
0
LINE
5
212
100
AcDbEntity
8
0
100
AcDbLine
10
962.73221724141399
20
1678.2213965445078
30
0
11
1010.1041461139587
21
1678.1207345890582
31
0
0
SPLINE
5
213
100
AcDbEntity
8
0
100
AcDbSpline
70
0
71
3
72
8
73
4
74
0
42
0.000000001
43
0.0000000001
44
0.0000000001
40
0.76470588235294112
40
0.76470588235294112
40
0.76470588235294112
40
0.76470588235294112
40
0.82352941176470584
40
0.82352941176470584
40
0.82352941176470584
40
0.82352941176470584
10
1010.1041461139587
20
1678.1207345890584
30
0
10
1009.1482918929831
20
1677.8025146748787
30
0
10
1008.3236131220434
20
1677.7162950496067
30
0
10
1007.3427291483913
20
1677.404264705503
30
0
0
SPLINE
5
214
100
AcDbEntity
8
0
100
AcDbSpline
70
0
71
3
72
8
73
4
74
0
42
0.000000001
43
0.0000000001
44
0.0000000001
40
0.82352941176470584
40
0.82352941176470584
40
0.82352941176470584
40
0.82352941176470584
40
0.88235294117647056
40
0.88235294117647056
40
0.88235294117647056
40
0.88235294117647056
10
1007.3427291483913
20
1677.404264705503
30
0
10
1004.4064839754088
20
1676.4702911576915
30
0
10
1001.5226329701763
20
1675.4661691490164
30
0
10
998.63275527829103
20
1674.3978710716569
30
0
0
ELLIPSE
5
215
100
AcDbEntity
8
0
100
AcDbEllipse
10
1006.4959216739421
20
1693.4198876901937
30
0
11
57.036045944285895
21
24.921064245634614
31
0.0
40
0.23625997042976574
41
4.304962031984882
42
4.4719551590866757
0
SPLINE
5
216
100
AcDbEntity
8
0
100
AcDbSpline
70
0
71
3
72
8
73
4
74
0
42
0.000000001
43
0.0000000001
44
0.0000000001
40
0.94117647058823517
40
0.94117647058823517
40
0.94117647058823517
40
0.94117647058823517
40
1
40
1
40
1
40
1
10
989.30138114922647
20
1671.1726707061707
30
0
10
986.55451510278544
20
1670.2917428598016
30
0
10
983.62451379435356
20
1669.8128113015382
30
0
10
980.7428345680953
20
1669.7026478130772
30
0
0
SPLINE
5
217
100
AcDbEntity
8
0
100
AcDbSpline
70
0
71
3
72
8
73
4
74
0
42
0.000000001
43
0.0000000001
44
0.0000000001
40
0
40
0
40
0
40
0
40
0.058823529411764698
40
0.058823529411764698
40
0.058823529411764698
40
0.058823529411764698
10
980.7428345680953
20
1669.7026478130772
30
0
10
979.60661410332079
20
1669.6593208225436
30
0
10
976.86506891536624
20
1669.6312505793035
30
0
10
975.80176592964699
20
1669.8623821566221
30
0
0
SPLINE
5
218
100
AcDbEntity
8
0
100
AcDbSpline
70
0
71
3
72
8
73
4
74
0
42
0.000000001
43
0.0000000001
44
0.0000000001
40
0.058823529411764698
40
0.058823529411764698
40
0.058823529411764698
40
0.058823529411764698
40
0.1176470588235294
40
0.1176470588235294
40
0.1176470588235294
40
0.1176470588235294
10
975.80176592964699
20
1669.8623821566221
30
0
10
974.67613288737141
20
1670.1070330580544
30
0
10
972.45174256762425
20
1670.8312670514422
30
0
10
971.43453559063062
20
1671.3268670133316
30
0
0
SPLINE
5
219
100
AcDbEntity
8
0
100
AcDbSpline
70
0
71
3
72
8
73
4
74
0
42
0.000000001
43
0.0000000001
44
0.0000000001
40
0.1176470588235294
40
0.1176470588235294
40
0.1176470588235294
40
0.1176470588235294
40
0.1764705882352941
40
0.1764705882352941
40
0.1764705882352941
40
0.1764705882352941
10
971.43453559063062
20
1671.3268670133316
30
0
10
968.84392904137599
20
1672.5889420696553
30
0
10
966.83074422686013
20
1673.9578686515047
30
0
10
964.71201095420292
20
1675.907094575233
30
0
0
LWPOLYLINE
5
220
100
AcDbEntity
8
0
100
AcDbPolyline
90
52
70
1
43
0.0
10
955.02148591323794
20
1602.3928507629157
10
966.51169615156107
20
1602.3928507629157
10
966.51169615156095
20
1599.3940507629156
10
979.83969615156093
20
1599.3940507629156
10
979.83969615156093
20
1602.3928507629157
10
999.831696151561
20
1602.3928507629157
10
999.831696151561
20
1599.3940507629156
10
1013.1596961515609
20
1599.3940507629156
10
1013.1596961515609
20
1602.3928507629157
10
1033.1516961515608
20
1602.3928507629157
10
1033.1516961515608
20
1599.3940507629156
10
1046.4796961515608
20
1599.3940507629156
10
1046.4796961515608
20
1602.3928507629157
10
1066.471696151561
20
1602.3928507629157
10
1066.471696151561
20
1599.3940507629156
10
1079.7996961515607
20
1599.3940507629156
10
1079.799696151561
20
1602.3928507629157
10
1102.2280237736463
20
1602.3928507629157
10
1102.2280237736463
20
1599.3940507629156
10
1115.5560237736463
20
1599.3940507629156
10
1115.5560237736465
20
1602.3928507629157
10
1121.6214859132378
20
1602.3928507629157
10
1121.6214859132378
20
1613.7994110986231
10
1123.6206859132378
20
1613.7994110986231
10
1123.6206859132378
20
1627.1274110986228
10
1121.6214859132376
20
1627.1274110986233
10
1121.6214859132378
20
1654.9606904272082
10
1123.6206859132378
20
1654.9606904272082
10
1123.6206859132378
20
1668.2886904272082
10
1121.6214859132376
20
1668.2886904272082
10
1121.6214859132378
20
1679.6952507629155
10
1115.5560237736468
20
1679.6952507629157
10
1115.5560237736468
20
1682.6940507629158
10
1102.2280237736466
20
1682.6940507629158
10
1102.2280237736463
20
1679.6952507629157
10
1079.7996961515607
20
1679.6952507629157
10
1079.799696151561
20
1682.6940507629158
10
1066.471696151561
20
1682.6940507629158
10
1066.471696151561
20
1679.6952507629157
10
1046.4796961515608
20
1679.6952507629157
10
1046.4796961515608
20
1682.6940507629158
10
1033.1516961515608
20
1682.6940507629158
10
1033.1516961515608
20
1679.6952507629157
10
1013.1596961515609
20
1679.6952507629157
10
1013.1596961515609
20
1682.6940507629158
10
999.831696151561
20
1682.6940507629158
10
999.831696151561
20
1679.6952507629157
10
979.83969615156093
20
1679.6952507629157
10
979.83969615156093
20
1682.6940507629158
10
966.51169615156107
20
1682.6940507629158
10
966.51169615156095
20
1679.6952507629157
10
955.02148591323794
20
1679.6952507629157
0
LWPOLYLINE
5
221
100
AcDbEntity
8
0
100
AcDbPolyline
90
4
70
1
43
0.0
10
1092.6330859132377
20
1614.9711507629154
10
1092.6330859132377
20
1628.2991507629154
10
1095.6318859132377
20
1628.2991507629158
10
1095.6318859132377
20
1614.9711507629158
0
LWPOLYLINE
5
222
100
AcDbEntity
8
0
100
AcDbPolyline
90
4
70
1
43
0.0
10
1092.6330859132377
20
1653.7889507629156
10
1092.6330859132377
20
1667.1169507629156
10
1095.6318859132377
20
1667.1169507629156
10
1095.6318859132377
20
1653.7889507629156
0
LWPOLYLINE
5
223
100
AcDbEntity
8
0
100
AcDbPolyline
90
28
70
1
43
0.0
10
885.6325859132379
20
1679.6952507629157
10
873.05428591323789
20
1679.6952507629157
10
873.05428591323789
20
1667.1169507629156
10
870.05548591323782
20
1667.1169507629156
10
870.05548591323782
20
1653.7889507629156
10
873.05428591323789
20
1653.7889507629156
10
873.05428591323789
20
1628.2991507629158
10
870.05548591323782
20
1628.2991507629158
10
870.05548591323782
20
1614.9711507629158
10
873.05428591323789
20
1614.9711507629158
10
873.05428591323789
20
1602.3928507629159
10
885.6325859132379
20
1602.3928507629157
10
885.6325859132379
20
1599.3940507629156
10
898.96058591323776
20
1599.3940507629156
10
898.96058591323776
20
1602.3928507629157
10
927.44785309191298
20
1602.3928507629157
10
927.44785309191298
20
1599.3940507629156
10
940.77585309191306
20
1599.3940507629156
10
940.77585309191306
20
1602.3928507629157
10
953.35548591323789
20
1602.3928507629157
10
953.35548591323789
20
1679.6952507629157
10
940.77585309191306
20
1679.6952507629157
10
940.77585309191306
20
1682.6940507629158
10
927.44785309191298
20
1682.6940507629158
10
927.44785309191298
20
1679.6952507629157
10
898.96058591323776
20
1679.6952507629157
10
898.96058591323776
20
1682.6940507629158
10
885.6325859132379
20
1682.6940507629158
0
LWPOLYLINE
5
224
100
AcDbEntity
8
0
100
AcDbPolyline
90
26
70
1
43
0.0
10
1121.493073288201
20
1775.1570456786874
10
1121.493073288201
20
1788.4850456786874
10
1124.4918732882006
20
1788.4850456786874
10
1124.4918732882006
20
1794.3160456786873
10
1099.7799710762906
20
1794.3160456787566
42
0.33344663105774025
10
1094.9813207025945
20
1790.7155286273214
42
-0.33344663105761824
10
1091.7822204534421
20
1788.3151839263471
10
1081.2319261227458
20
1788.3151839264083
42
-0.33344663105610556
10
1078.0328258736654
20
1790.7155286273114
42
0.3334466310560692
10
1073.2341755001112
20
1794.316045678687
10
1048.5222732882007
20
1794.3160456786873
10
1048.5222732882007
20
1788.4850456786874
10
1051.5210732882008
20
1788.4850456786874
10
1051.5210732882008
20
1775.1570456786874
10
1048.5222732882007
20
1775.1570456786874
10
1048.5222732882007
20
1769.3260456786875
10
1061.8703970053023
20
1769.3260456786875
10
1061.8703970053023
20
1772.3248456786873
10
1075.198397005302
20
1772.3248456786871
10
1075.198397005302
20
1769.326045678687
10
1097.8157495710998
20
1769.3260456786875
10
1097.8157495710998
20
1772.3248456786873
10
1111.1437495710995
20
1772.3248456786871
10
1111.1437495710995
20
1769.326045678687
10
1124.4918732882006
20
1769.3260456786875
10
1124.4918732882006
20
1775.1570456786874
0
LWPOLYLINE
5
225
100
AcDbEntity
8
0
100
AcDbPolyline
90
36
70
1
43
0.0
10
1128.2854810944268
20
1773.3244467809516
10
1128.2854810944268
20
1765.1789343114337
10
1125.2866810944267
20
1765.1789343114337
10
1125.2866810944267
20
1751.8509343114333
10
1128.2854810944268
20
1751.8509343114333
10
1128.2854810944268
20
1724.4927592504691
10
1125.2866810944267
20
1724.4927592504696
10
1125.2866810944267
20
1711.1647592504696
10
1128.2854810944268
20
1711.1647592504692
10
1128.2854810944268
20
1703.0192467809513
10
1138.6348048115281
20
1703.0192467809513
10
1138.6348048115281
20
1701.0200467809514
10
1151.962804811528
20
1701.0200467809514
10
1151.962804811528
20
1703.0192467809513
10
1174.5801573773253
20
1703.0192467809513
10
1174.5801573773256
20
1701.0200467809514
10
1187.9081573773256
20
1701.0200467809514
10
1187.9081573773256
20
1703.0192467809513
10
1198.2574810944268
20
1703.0192467809513
10
1198.2574810944268
20
1711.1647592504692
10
1201.2562810944269
20
1711.1647592504692
10
1201.2562810944269
20
1724.4927592504691
10
1198.2574810944268
20
1724.4927592504696
10
1198.2574810944268
20
1751.8509343114338
10
1201.2562810944269
20
1751.8509343114333
10
1201.2562810944269
20
1765.1789343114337
10
1198.2574810944268
20
1765.1789343114337
10
1198.2574810944268
20
1773.3244467809516
10
1189.177781094427
20
1773.3244467809516
10
1189.1777810944268
20
1776.3232467809516
10
1175.8497810944268
20
1776.3232467809512
10
1175.8497810944268
20
1773.3244467809513
10
1150.693181094427
20
1773.3244467809516
10
1150.693181094427
20
1776.3232467809516
10
1137.3651810944268
20
1776.3232467809512
10
1137.3651810944266
20
1773.3244467809513
0
LWPOLYLINE
5
226
100
AcDbEntity
8
0
100
AcDbPolyline
90
4
70
1
43
0.0
10
1146.1950062501514
20
1607.7240507629156
10
1146.1950062501514
20
1610.7228507629156
10
1159.5230062501516
20
1610.7228507629156
10
1159.5230062501516
20
1607.7240507629156
0
LWPOLYLINE
5
227
100
AcDbEntity
8
0
100
AcDbPolyline
90
4
70
1
43
0.0
10
1191.0104062501514
20
1607.7240507629156
10
1191.0104062501514
20
1610.7228507629156
10
1204.3384062501516
20
1610.7228507629156
10
1204.3384062501516
20
1607.7240507629156
0
LWPOLYLINE
5
228
100
AcDbEntity
8
0
100
AcDbPolyline
90
4
70
1
43
0.0
10
1146.1950062501514
20
1688.0252507629157
10
1146.1950062501514
20
1691.0240507629157
10
1159.5230062501516
20
1691.0240507629157
10
1159.5230062501516
20
1688.0252507629157
0
LWPOLYLINE
5
229
100
AcDbEntity
8
0
100
AcDbPolyline
90
4
70
1
43
0.0
10
1191.0104062501514
20
1688.0252507629157
10
1191.0104062501514
20
1691.0240507629157
10
1204.3384062501516
20
1691.0240507629157
10
1204.3384062501516
20
1688.0252507629157
0
LWPOLYLINE
5
230
100
AcDbEntity
8
0
100
AcDbPolyline
90
8
70
1
43
0.0
10
1133.6167062501515
20
1699.3540507629157
42
0.41421356237310503
10
1125.2867062501512
20
1691.0240507629157
10
1125.2867062501516
20
1607.7240507629156
42
0.41421356237313001
10
1133.6167062501515
20
1599.3940507629156
10
1216.9167062501515
20
1599.3940507629156
42
0.41421356237312001
10
1225.2467062501514
20
1607.7240507629158
10
1225.2467062501514
20
1691.0240507629157
42
0.41421356237309503
10
1216.9167062501515
20
1699.3540507629157
0
LWPOLYLINE
5
231
100
AcDbEntity
8
0
100
AcDbPolyline
90
20
70
1
43
0.0
10
1251.9027062501521
20
1671.6984168064159
10
1246.0717062501519
20
1671.6984168064159
10
1246.0717062501519
20
1673.6976168064157
10
1232.7437062501522
20
1673.6976168064157
10
1232.7437062501519
20
1671.6984168064159
10
1226.912706250152
20
1671.6984168064159
10
1226.912706250152
20
1601.3932168064159
10
1232.7437062501522
20
1601.3932168064159
10
1232.7437062501522
20
1599.3940168064159
10
1246.0717062501519
20
1599.3940168064159
10
1246.0717062501519
20
1601.3932168064159
10
1251.9027062501521
20
1601.3932168064159
10
1251.9027062501521
20
1609.5387292759337
10
1248.903906250152
20
1609.5387292759337
10
1248.903906250152
20
1622.8667292759337
10
1251.9027062501521
20
1622.8667292759337
10
1251.9027062501521
20
1650.2249043368979
10
1248.903906250152
20
1650.2249043368979
10
1248.903906250152
20
1663.5529043368979
10
1251.9027062501521
20
1663.5529043368979
0
LWPOLYLINE
5
232
100
AcDbEntity
8
0
100
AcDbPolyline
90
20
70
1
43
0.0
10
1262.0831413052497
20
1794.1494456786877
10
1262.0831413052497
20
1791.1506456786876
10
1248.7551413052497
20
1791.1506456786874
10
1248.7551413052497
20
1794.1494456786872
10
1221.3969662442853
20
1794.1494456786877
10
1221.3969662442853
20
1791.1506456786876
10
1208.0689662442853
20
1791.1506456786874
10
1208.0689662442853
20
1794.1494456786872
10
1199.9234537747675
20
1794.1494456786877
10
1199.9234537747675
20
1788.3184456786876
10
1197.9242537747675
20
1788.3184456786876
10
1197.9242537747675
20
1774.9904456786876
10
1199.9234537747675
20
1774.9904456786874
10
1199.9234537747675
20
1769.1594456786875
10
1270.2286537747675
20
1769.1594456786875
10
1270.2286537747675
20
1774.9904456786874
10
1272.2278537747675
20
1774.9904456786874
10
1272.2278537747675
20
1788.3184456786873
10
1270.2286537747675
20
1788.3184456786876
10
1270.2286537747675
20
1794.1494456786877
0
ENDSEC
0
SECTION
2
OBJECTS
0
DICTIONARY
5
C
100
AcDbDictionary
3
ACAD_GROUP
350
D
3
ACAD_MLINESTYLE
350
17
0
DICTIONARY
5
D
100
AcDbDictionary
0
DICTIONARY
5
1A
330
C
100
AcDbDictionary
0
DICTIONARY
5
17
100
AcDbDictionary
0
ENDSEC
0
EOF
